Inside The Schwarzschild Radius Prog-Rock/Art Rock

Started by rhythmicdevil, © All Rights Reserved 2016

   
719365
Upload

 


Creative Brief

Inside The Schwarzschild Radius

Tempo: 80

Time Signature: 7/4 except for the 3rd verse which is in 4/4

Key Signature: B Harmonic Minor but not always. I only used the A# intentionally to get the tri-tone chord. In the harmonies I tended to use the A.

Overview: The song title refers to the radius where light cannot escape a black hole and is a metaphor for being trapped in situation that you cannot escape. About the Schwarzschild Radius.

Looking For: I need lead guitar, and vocals.

Lyrics: Are provided, feel free to change as you need to.

Form:

00:15 - 00:48

Intro

 

00:52 - 01:13

Verse 1A

 

01:13 - 01:34

Verse 1b

 

01:34 - 01:55

Chorus 1

 

02:01 -  02:21

Verse 2A

 

02:21 - 03:03

Verse 2B

 

03:03 - 03:24

Chorus 2

 

03:24 - 04:17

Bill's shredding solo of shredded doominess

 

04:17 - 05:05

Verse 3

 

05:05 - END

Chorus 3

 

 

 

I am going to post my chord charts and notes below. They are mostly accurate, I try to keep them up to date with song as I am working.  

 

9	C#	D	E	F#	G	A#	B	C#
7	A#	B	C#	D	E	F#	G	A#
5	F#	G	A#	B	C#	D	E	F#
3	D	E	F#	G	A#	B	C#	D
1	B	C#	D	E	F#	G	A#	B

	m	d	M	m	m	M	M	m


Intro heavy gtr
e  |----------------------------|----------------------------|----------------------------|7-7-7-7-7-7-7-7-7-7-7-7-7-7-
B  |----------------------------|----------------------------|7-7-7-7-7-7-7-7-7-7-7-7-7-7-|7-7-7-7-7-7-7-7-7-7-7-7-7-7-
G  |----------------------------|7-7-7-7-7-7-7-7-7-7-7-7-7-7-|7-7-7-7-7-7-7-7-7-7-7-7-7-7-|7-7-7-7-7-7-7-7-7-7-7-7-7-7-
D  |9-9-9-9-9-9-9-9-9-9-9-9-9-9-|9-9-9-9-9-9-9-9-9-9-9-9-9-9-|9-9-9-9-9-9-9-9-9-9-9-9-9-9-|9-9-9-9-9-9-9-9-9-9-9-9-9-9-
A  |9-9-9-9-9-9-9-9-9-9-9-9-9-9-|9-9-9-9-9-9-9-9-9-9-9-9-9-9-|9-9-9-9-9-9-9-9-9-9-9-9-9-9-|9-9-9-9-9-9-9-9-9-9-9-9-9-9-
E  |7-7-7-7-7-7-7-7-7-7-7-7-7-7-|7-7-7-7-7-7-7-7-7-7-7-7-7-7-|7-7-7-7-7-7-7-7-7-7-7-7-7-7-|7-7-7-7-7-7-7-7-7-7-7-7-7-7-

Intro high guitar															  A = 10th fret
e  |2-2-2-2-2-2-2-2-2-2-2-2-2-2-|2-2-2-2-2-2-2-2-2-2-2-2-2-2-|7-7-7-7-9-9-9-9-1-1-1-1-9-9-|7-7-7-7-9-9-9-9-A-A-A-A-9-9-
B  |3-3-3-3-3-3-3-3-3-3-3-3-3-3-|3-3-3-3-3-3-3-3-3-3-3-3-3-3-|7-7-7-7-7-7-7-7-7-7-7-7-7-7-|7-7-7-7-7-7-7-7-7-7-7-7-7-7-
G  |4-4-4-4-4-4-4-4-4-4-4-4-4-4-|4-4-4-4-4-4-4-4-4-4-4-4-4-4-|7-7-7-7-7-7-7-7-7-7-7-7-7-7-|7-7-7-7-7-7-7-7-7-7-7-7-7-7-
D  |----------------------------|4-4-4-4-4-4-4-4-4-4-4-4-4-4-|0-0-0-0-0-0-0-0-0-0-0-0-0-0-|0-0-0-0-0-0-0-0-0-0-0-0-0-0-
A  |----------------------------|----------------------------|----------------------------|----------------------------
E  |----------------------------|----------------------------|----------------------------|----------------------------

Bm -> Em -> A#d -> G

Verse A heavy gtr
e  |----------------------------|----------------------------|----------------------------|----------------------------
B  |----------------------------|----------------------------|----------------------------|----------------------------
G  |----------------------------|----------------------------|----------------------------|----------------------------
D  |9999------9-99------9-9-99--|9999------9-99------9-9-99--|8888------8-88------8-8-88--|5555------5-55------5-5-55--
A  |9999------9-99------9-9-99--|7777------7-77------7-7-77--|7777------7-77------7-7-77--|5555------5-55------5-5-55--
E  |7777------7-77------7-7-77--|7777------7-77------7-7-77--|6666------6-66------6-6-66--|3333------3-33------3-3-33--

Verse A high guitar (same rhythm as heavy gtr)
e  |2---|7---|6---|3---
B  |3---|8---|5---|3---
G  |4---|9---|6---|4---
D  |----|----|----|----
A  |----|----|----|----
E  |----|----|----|----


Chorus A heavy gtr
e |------------------------------
B |------------------------------
G |------------------------------
D |9-9-99--9--9-99---------------
A |9-9-99--9--9-99-999977---775--
E |7-7-77--7--7-77-------99----7- Chorus Harmony 3rd e |--------------- B |--------------- G |--------------- D |777755--554---- A |------77---5--- E |--------------- Verse B high accent 1 e |7--------|----3-------|6-----------|3----------- B |------7--|5-----------|--------5---|--------3--- G |---------|--------4---|------------|------------ D |---------|------------|------------|------------ A |---5-----|------------|----4-------|----2------- E |---------|------------|------------|------------ Verse B high accent 2 e |--14----12--12----9-----10-10--- B |12--12----12----11-11-----8----- G |-------------------------------- D |-------------------------------- A |-------------------------------- E |-------------------------------- Verse B rhythm guitar e |7-7-10-7-7-10-7-10-7--7-10-7--|12-12-15-12-12-15-12-15-12--12-15-12--|6-6-9-6-6-9-6-9-6--6-9-7--|3-3-7-3-3-7-3-7-3--3-7-3--| B |7-7-7--7-7-7--7-7--7--7-7--7--|12-12-12-12-12-12-12-12-12--12-12-12--|7-7-7-7-7-7-7-7-7--7-7-7--|3-3-3-3-3-3-3-3-3--3-3-3--| G |------------------------------|--------------------------------------|--------------------------|--------------------------| D |------------------------------|--------------------------------------|--------------------------|--------------------------| A |------------------------------|--------------------------------------|--------------------------|--------------------------| E |------------------------------|--------------------------------------|--------------------------|--------------------------| Verse B heavy rhythm guitar (not going to notate the whole rhythm, but its the classic rock'n'roll thing) e |--------------------|-------------------------|-----------------|----------------- B |--------------------|-------------------------|-----------------|----------------- G |--------------------|-------------------------|-----------------|----------------- D |--------------------|11-11-12-11-11-12-11-12--|-----------------|----------------- A |9-9-10-9-9-10-9-10--|9--9--9--9--9--9--9--9---|7-7-9-7-7-9-7-9--|5-5-7-5-5-7-5-7-- E |7-7-7--7-7-7--7-7---|-------------------------|6-6-6-6-6-6-6-6--|3-3-3-3-3-3-3-3-- Breakdown pattern 1 e |---------------------------- B |---------------------------- G |---------------------------- D |---------------------------- A |---------------------------- E |---------------------------- Breakdown pattern 1 (Uses sliding 3rds and a run, again not notating rhythm) e |------------------------------------- B |------------------------------------- G |------------------------------------- D |---------------4--------------------- A |5-7-5---4-5-7----7-5-7--5-7-5--4-5-4- E |7-9-7-7------------------------------ Breakdown pattern 2 (Uses sliding 3rds and a run, again not notating rhythm) e |--------------------------------------- B |--------------------------------------- G |--------------------------------------- D |--------------------------------------- A |4-5-4------4-5--7-5-4-5--4-5-4----4---- E |5-7-5--5-7----------------------7---7--

 

Additional Information

Genre Prog-Rock/Art Rock Key B minor BPM 90.0

Collaboration started December 8, 2016 by rhythmicdevil
Last upload 18 days ago


Copyright Information

Initial Copyright Statement:

Copyright © 2016 by rhythmicdevil, All Rights Reserved.
Effective on Dec 8, 2016


Copyright Sharing Statement:

rhythmicdevil has declared the following Composition and Sound Recording copyright intentions for this collaboration, when completed:

Composition: Keep all rights exclusively
Sound Recording: Based on a split sheet
Upload Metrics

 

Collaborators
PLUS
rhythmicdevil Steven Wright
Marietta GA USA
Creator
PRO
tbase2000 Tony Hill
Perry Florida USA
PLUS
sriracha Billy LeCoq-Mauvais
Swamp Yankee Pitcairn
JennyK Jenny Kay
House of Imp Ontario Canada