From the Mouths of Dictators Death Metal/Black Metal

Started by rhythmicdevil, © All Rights Reserved 2017

   
779982
Upload

 


Help Wanted

Help me finish this collaboration. I am currently requesting uploads for the tracks listed below. Feel free to contribute.
- rhythmicdevil
Need help with... As of... Accepted Ideas Upload
Bass-Electric 7mo+20dy ago 1 -
Contribute other track    

Creative Brief

Notes on the placement of vocals.

Verse 1 00:38 -> 01:07
Chorus 1 01:07 -> 01:43
Interlude 01:43 -> 02:38
Singing (?)  02:38 -> 03:30
Verse 2  04:03 -> 04:30
Chorus 2  04:30 -> 05:07

The parts marked as verses and choruses go together because they repeat.

The Interlude and part marked as Singing (?) are other places that vocals could go. 

 

The end of the song is a bit complicated. You can hear that there are two distinct parts. I was thinking that the vocals would alternate with guitar leads. There is a break at 05:13 and when the whole band kicks in this pattern is followed until the end of the song. My initial thought is that the vocals would go on the A part and the leads would go on the B parts. 

A -> 05:21

B -> 05:36

A -> 05:50

B -> 06:03

A -> 06:16

B -> 06:30

A -> 06:44

B -> 06:58 

End -> 07:09

 

Song Structure

Started out based on the idea of a rondo where the structure is defined as ABABABA and each subsequent repeated section is a variation. 

The key for the A sections is D minor

The key for the B sections is A minor

 

This tab is for the high guitar part towards the end. It shows the rhythm for the riff part, but not the chords.  

D minor

C	D	E	F	G	A	Bb
A	Bb	C	D	E	F	G
F	G	A	Bb	C	D	E
D	E	F	G	A	Bb	C
m	d	M	m	m	M	m


Intro
    (4/4)
    G G G G F F F F  
e  |----------------|
B  |----------------|
G  |----------------|
D  |----------------|
A  |5-5-5-5-3-3-3-3-|
D  |5-5-5-5-3-3-3-3-|



Section A 
    (7/4)
    D F D   F   Am               D F D   F   Am               D F D                     
e  |------------5---------------|------------5---------------|----------------------------|
B  |------------5---------------|------------5---------------|----------------------------|
G  |------------5---------------|------------5---------------|----------------------------|
D  |----------------------------|----------------------------|----------------------------|
A  |0-3-0---3-------------------|0-3-0---3-------------------|0-3-0---5-5-5-5-33--3-3---3-|
D  |0-3-0---3-------------------|0-3-0---3-------------------|0-3-0---5-5-5-5-33--3-3---3-|



Section B
    (4/4)                                                                                                                  (3/4) 
    A x 4            G                G                G                G                F                F                E             
e  |----------------|----------------|----------------|----------------|----------------|----------------|----------------|------------| 
B  |----------------|----------------|----------------|----------------|----------------|----------------|----------------|------------| 
G  |----------------|----------------|----------------|----------------|----------------|----------------|----------------|------------| 
D  |----------------|----------------|----------------|----------------|----------------|----------------|----------------|------------| 
A  |7--7x-----------|5--5x-5---------|5--5x-5---------|5--5x-5---------|5--5x-5---------|3--3x-3---------|3--3x-3---------|2-2---------|  
D  |7--7x-7777779999|5--5x-5----55555|5--5x-5-----5555|5--5x-5-----5555|5--5x-5-----5555|3--3x-3----33333|3--3x-3-----3333|2-2-000 0 00| 


Section C
    (4/4)           
    F   D            G  x 2           A               
e  |----------------|----------------|----------------
B  |----------------|----------------|----------------
G  |----------------|----------------|----------------
D  |----------------|----------------|----------------
A  |3---0-----------|5---------------|7---------------
D  |3---0---0-0-000-|5---------------|7-------00000000




Breakdown Part 1
    Dm       Gm6      Gmadd9   Asus2    Am         
e  |1-------|3-------|3-------|0-------|0-------
B  |3-------|3-------|3-------|0-------|1-------
G  |2-------|0-------|2-------|2-------|2-------
D  |--------|2-------|0-------|2-------|2-------
A  |--------|1-------|1-------|0-------|0-------
D  |--------|--------|--------|--------|--------



Section D - heavy slow part
    (4/8) but feels like 6/4
    A                       C#m      G                       Bm       F                       Am        
e  |------------------------9-9-9---|------------------------7-7-7---|------------------------7-7-7---|----------------
B  |------------------------9-9-9---|------------------------7-7-7---|------------------------7-7-7---|----------------
G  |------------------------9-9-9---|------------------------7-7-7---|------------------------7-7-7---|----------------
D  |--------------------------------|--------------------------------|--------------------------------|----------------
A  |7-7-7-7-7-7-7-7-7-7---7---------|5-5-5-5-5-5-5-5-5-5---5---------|3-3-3-3-3-3-3-3-3-3---3---------|0--0--3--3--3333
D  |7-7-7-7-7-7-7-7-7-7---7---------|5-5-5-5-5-5-5-5-5-5---5---------|3-3-3-3-3-3-3-3-3-3---3---------|0000--3333--3333






Additional Information

Genre Death Metal/Black Metal Key Dm/Am BPM 110.0

Collaboration started August 13, 2017 by rhythmicdevil
Last upload 5mo+2dy ago


Copyright Information

Initial Copyright Statement:

Copyright © 2017 by rhythmicdevil, All Rights Reserved.
Effective on Aug 13, 2017


Copyright Sharing Statement:

rhythmicdevil has declared the following Composition and Sound Recording copyright intentions for this collaboration, when completed:

Composition: Based on a split sheet
Sound Recording: Based on a split sheet
Upload Metrics

 

Collaborators
PLUS
rhythmicdevil Steven Wright
Marietta GA USA
Creator
maz4pres Jim Maz
Boston MA USA
arth1966 Arth melo
haverhill ma USA
PLUS
sriracha Billy LeCoq-Mauvais
Swamp Yankee Pitcairn
PRO
tbase2000 Tony Hill
Perry Florida USA