Shining A Light Into Dark Places Prog-Rock/Art Rock

Started by rhythmicdevil, © All Rights Reserved 2018

   
883795
Upload

 


Help Wanted

Help me finish this collaboration. I am currently requesting uploads for the tracks listed below. Feel free to contribute.
- rhythmicdevil
Need help with... As of... Accepted Ideas Upload
Bass-Electric 20 days ago - -
Contribute other track    

Creative Brief

Shining a light into dark spaces


E 	F	G	A	Bb	C	D
C	D	E 	F	G	A	Bb
A	Bb	C	D	E 	F	G
F	G	A	Bb	C	D	E
D	E 	F	G	A	Bb	C

Intro Chord should be an F of some type so we get a V -> i change
e  |------6------|  |------8------|
B  |----6---6----|  |----6---6----|
G  |--7-------7--|x2|--7-------7--|x2
D  |7-----------7|  |7-----------7|
A  |-------------|  |-------------|
E  |-------------|  |-------------|


EXPOSITION

    Dm       Am       C        F   Em  Dm    G    F    C       Dm  C     Am   Gm   Dm
Gtr Clean: 	open chords should present higher notes
e  |5-------|5-------|8-------|-------|10---|10--|8---|8---|  |5---3-|  |5---|3---|5----
B  |6(5)----|5-------|8-------|-------|10---|9---|10--|8---|  |6---5-|  |5---|3---|6----
G  |7-------|7-------|9-------|-------|10---|12--|10--|9---|  |7---5-|  |5---|3---|7----
D  |7-------|7-------|10------|10--9--|12---|12--|10--|10--|x2|7---5-|x3|7---|5---|7----
A  |5-------|5-------|10------|8---7--|12---|10--|8---|10--|  |5---3-|  |7---|5---|5----
E  |--------|--------|8-------|8---7--|10---|----|----|8---|  |------|  |5---|3---|5----

Gtr Hvy :	power chords 
e  |--------|--------|--------|-------|-----|----|----|----|  |------|  |----|----|-----
B  |--------|--------|--------|-------|-----|----|----|----|  |------|  |----|----|-----
G  |--------|--------|--------|-------|-----|----|----|----|  |------|  |----|----|-----
D  |7-------|7-------|10------|10--9--|7----|5---|3---|5---|  |7---5-|  |7---|5---|7----
A  |5-------|7-------|10------|8---7--|5----|5---|3---|3---|  |5---3-|  |7---|5---|5----
E  |5-------|5-------|9-------|8---7--|5----|3---|1---|3---|  |5---3-|  |5---|3---|5----


Gtr DrpD:	root notes
e  |--------|--------|--------|-------|-----|----|----|----|  |------|  |----|----|----
B  |--------|--------|--------|-------|-----|----|----|----|  |------|  |----|----|----
G  |--------|--------|--------|-------|-----|----|----|----|  |------|  |----|----|----
D  |--------|--------|--------|-------|-----|----|----|----|  |------|  |----|----|----
A  |--------|0-------|3-------|-------|-----|----|----|----|  |------|  |0---|----|----
E  |0-------|--------|--------|3---2--|0----|5---|3---|2---|  |0---2-|  |----|5---|0---



INTERLUDE 1
	Dm7                       Ed B7   C7
e  |------------------------|--------|----------------
B  |------------------------|--------|----------------
G  |------------------------|--------|----------------
D  |3---------3-----3-------|55-77-7-|77-77-77-77-----
A  |5---------3-----3-------|77-55-5-|99-99-99-99-----
E  |5-x-x x x-5-x-x-5-553333|66-66-6-|88-88-88-88-----
	
Gtr Drp D
e  |------------------------|--------|----------------
B  |------------------------|--------|----------------
G  |------------------------|--------|----------------
D  |------------------------|--------|----------------
A  |8---------12----12------|77-88-8-|10--------------
D  |0-x-x-x-x-0-x-x-0-775555|88-88-8-|10--------------




DEVELOPMENT 
Gtr Drp D
    Dm7                        Am7
e  |--------------------------|--------------------------|
B  |--------------------------|--------------------------|
G  |--------------------------|--------------------------|
D  |--------------------------|--------------------------|
A  |--------3-3---------------|--------3-3---------------|
D  |0-0-3-3-----3-3-0-0-3-3-0-|7-7-5-5-----5-5-7-7-5-5-7-|

Melody
e  |--------|--------|--------|--------|  |--------|--------|
B  |--------|6666666-|--------|--------|  |--------|--------|
G  |77777777|-------5|5555555-|--------|  |--------|-------7|
D  |--------|--------|-------7|77777777|x?|77777777|7777777-|
A  |--------|--------|--------|--------|  |--------|--------|
E  |--------|--------|--------|--------|  |--------|--------|
|
--Root and 5th played as single notes
--Chords played with 1st inversion



INTERLUDE 2
Gtr Hvy 
	Dm    Bb    C    Bb    Dm
e  |-----------------------------
B  |-----------------------------
G  |-----------------------------
D  |7-----------------------7----
A  |5-----5-----7----5------5----
E  |5-----6-----8----6------5----

Gtr Scr
	Dm    Bb    C    Bb    Dm
e  |-----------------------------
B  |-----------------------------
G  |-----------------------------
D  |-----------------------------
A  |-----------------------------
E  |-----------------------------

Drop D
	Dm     Bb     C     Bb     Dm
e  |------|-------|-----|------|------
B  |------|-------|-----|------|------
G  |------|-------|-----|------|------
D  |------|-------|-----|------|------
A  |0-----|7-8----|10---|8-----|0-----
D  |0-----|8-8----|10---|8-----|0-----



RECAPITULATION
    Gm             Dm           Bb    Am   
Gtr Clean 1                  
e  |--------------|----5---|  ||6---|5---|
B  |--6-------8---|--6-----|  ||6---|5---|
G  |7---7---7---7-|7-------|  ||7---|5---|
D  |5-------5-----|--------|  ||----|----|
A  |--------------|--------|  ||----|----|
E  |--------------|--------|  ||----|----|

Gtr Clean2    Gm                     Dm                 Bb/Am
e  |--------------------------------|-----------------|----------------------|
B  |--------------------------------|-----------------|----------------------|
G  |--------------------------------|-----------------|------5-------5-------|
D  |8----8-----8--8---8-----8-------|-----------------|----7------------7----|
A  |--10---10---10-10---10-----10--8|---8----8---8----|--5---------5---------|
E  |--------------------------------|10---10---10-10--|6---------6-----------|

Gtr Hvy L +             ending 1      ending 2
e  |----------------|----|  ||----|----|  ||----|----|
B  |----------------|----|  ||----|----|  ||----|----|
G  |----------------|----|  ||----|----|  ||----|----|
D  |5---------------|----|  ||----|----|  ||----|----|x2
A  |5---------------|----|  ||----|----|  ||7---|5---|
E  |6---------------|----|  ||----|----|  ||8---|6---|

Drop D                           
e  |----------------|----|  ||----|----|  ||----|----|
B  |----------------|----|  ||----|----|  ||----|----|
G  |----------------|----|  ||----|----|  ||----|----|
D  |----------------|----|  ||----|----|  ||----|----|x2
A  |----------------|----|  ||----|----|  ||----|----|
D  |----------------|----|  ||----|----|  ||----|----|
Bass                             
G  |----------------|----|  ||----|----|  ||----|----|
D  |----------------|----|  ||----|----|  ||----|----|
A  |----------------|----|  ||----|----|  ||----|----|x2
E  |3----3----------|----|  ||----|----|  ||----|----|
B  |----------------|----|  ||----|----|  ||----|----|



Ending

Guitar Hvy L
	Dm  Dm7 D5   Dm
e  |------------------
B  |------------------
G  |------------------
D  |3---7---12---12---
A  |5---8---12---12---
E  |5---8---10---13---

Additional Information

Genre Prog-Rock/Art Rock Key Dm BPM 130.0

Collaboration started October 21, 2018 by rhythmicdevil
Last upload 6 days ago


Copyright Information

Initial Copyright Statement:

Copyright © 2018 by rhythmicdevil, All Rights Reserved.
Effective on Oct 21, 2018


Copyright Sharing Statement:

rhythmicdevil has declared the following Composition and Sound Recording copyright intentions for this collaboration, when completed:

Composition: Based on a split sheet
Sound Recording: Based on a split sheet
Upload Metrics

 

Collaborators
PLUS
rhythmicdevil Steven Wright
Marietta GA USA
Creator
PLUS
AndreaSpace Andrea Spaziale
Casale Monferrato Alessandria Italy
PLUS
sriracha Billy LeCoq-Mauvais
Swamp Yankee Pitcairn