I Love The Machine, The Machine Loves Me Prog-Rock/Art Rock

Started by rhythmicdevil, © All Rights Reserved 2019

   
960036
Upload

 


Creative Brief

I Love the Machine, the Machine Loves Me

C# minor / 130bpm

Note: The guitar is actually tuned to C# standard, this is tabbed in E standard because I am too lazy to do the transposition.

Movement I

Section A - Heavy guitar

This is the just the chords, I didn't notate any rhythms or any of the connecting runs.

   D7      C7       E3   D3    C#3  C3    Am  Gm  Am6/F#  D   E5 
e |-------|--------|---------------------|--------5------|--------
B |-------|--------|---------------------|--------5------|--------
G |-------|--------|---------------------|5---4---5------|--------
D |10-----|9-------|---------------------|7---5---4------|4---2---
A |-9-----|7-------|10----9----7----7----|7---5----------|5---2---
E |10-----|8-------|12---10----9----8----|---------------|5---0---

Section B - Guitar chords

Just main chords, no rhythms or connecting runs. 

   Bm   D    Am   Em
e |----|----|----|----
B |----|----|----|----
G |----|----|----|----
D |----|----|----|----
A |5---|-9--|3---|2---
E |7---|10--|5---|0---

Section C

   Bm                     D7                     Am                     Em                     Bm                     D7                     Am                     Em
Chuggy guitar
e |----------------------|----------------------|----------------------|----------------------|----------------------|----------------------|----------------------|----------------------|
B |----------------------|----------------------|----------------------|----------------------|----------------------|----------------------|----------------------|----------------------|
G |----------------------|----------------------|----------------------|----------------------|----------------------|----------------------|----------------------|----------------------|
D |----------------------|----------------------|----------------------|----------------------|----------------------|----------------------|----------------------|----------------------|
A |----------------------|----------------------|----------------------|----------------------|----------------------|----------------------|----------------------|----------------------|
E |333-3-333-3-3333333-3-|333-3-333-3-3333333-3-|000-0-000-0-0000000-0-|000-0-000-0-0000000-0-|333-3-333-3-3333333-3-|333-3-333-3-3333333-3-|000-0-000-0-0000000-0-|000-0-000-0-0000000-0-|

Acoustic guitar
e |777-7-777-7-7777777-7-|555-5-555-5-5555555-5-|555-5-555-5-5555555-5-|777-7-777-7-7777777-7-|777-7-777-7-7777777-7-|555-5-555-5-5555555-5-|555-5-555-5-5555555-5-|777-7-777-7-7777777-7-|
B |777-7-777-7-7777777-7-|555-5-555-5-5555555-5-|555-5-555-5-5555555-5-|888-8-888-8-8888888-8-|777-7-777-7-7777777-7-|555-5-555-5-5555555-5-|555-5-555-5-5555555-5-|888-8-888-8-8888888-8-|
G |777-7-777-7-7777777-7-|777-7-777-7-7777777-7-|555-5-555-5-5555555-5-|999-9-999-9-9999999-9-|777-7-777-7-7777777-7-|777-7-777-7-7777777-7-|555-5-555-5-5555555-5-|999-9-999-9-9999999-9-|
D |999-9-999-9-9999999-9-|777-7-777-7-7777777-7-|777-7-777-7-7777777-7-|999-9-999-9-9999999-9-|999-9-999-9-9999999-9-|777-7-777-7-7777777-7-|777-7-777-7-7777777-7-|999-9-999-9-9999999-9-|
A |----------------------|----------------------|----------------------|----------------------|----------------------|----------------------|----------------------|----------------------|
E |----------------------|----------------------|----------------------|----------------------|----------------------|----------------------|----------------------|----------------------|

E-Bow root
e |----------------------|----------------------|----------------------|----------------------|----------------------|----------------------|----------------------|----------------------|
B |12--------------------|15------------------13|10------------------8-|5-------------------8-|12--------------------|15------------------13|10------------------8-|5-------------------7-|
G |----------------------|----------------------|----------------------|----------------------|----------------------|----------------------|----------------------|----------------------|
D |----------------------|----------------------|----------------------|----------------------|----------------------|----------------------|----------------------|----------------------|
A |----------------------|----------------------|----------------------|----------------------|----------------------|----------------------|----------------------|----------------------|
E |----------------------|----------------------|----------------------|----------------------|----------------------|----------------------|----------------------|----------------------|

E-Bow melody
e |10--------------------|5---------------------|8---------------------|10--------------------|14--------------------|14--------------------|12--------------------|15--------------------|
B |----------------------|----------------------|----------------------|----------------------|----------------------|----------------------|----------------------|----------------------|
G |----------------------|----------------------|----------------------|----------------------|----------------------|----------------------|----------------------|----------------------|
D |----------------------|----------------------|----------------------|----------------------|----------------------|----------------------|----------------------|----------------------|
A |----------------------|----------------------|----------------------|----------------------|----------------------|----------------------|----------------------|----------------------|
E |----------------------|----------------------|----------------------|----------------------|----------------------|----------------------|----------------------|----------------------|
   D(3)                   A(5)                   C(3)                   D(7)                   F#(5)                  F#(3)                  E(5)                   G(5)                      

   A                      C                      G                      D                      A                      C                      G                      D
   F#                     A                      E                      B                      F#                     A                      E                      B
   D                      F#                     C                      G                      D                      F#                     C                      G
   B                      D                      A                      E                      B                      D                      A                      E
   v                      VII                    iv                     i                      v                      VII                    iv                     i

Movement II

?? Tony

Movement III

?? 

e |--------
B |--------
G |--------
D |--------
A |--------
E |--------


C# minor
B       C#      D#      E       F       G#      A   
G#      A       B       C#      D#      E       F   
E       F       G#      A       B       C#      D#  
C#      D#      E       F       G#      A       B   
i       iid     III     iv      v       VI      VII


Em 
D       E       F#      G       A       B       C
B       C       D       E       F#      G       A   
G       A       B       C       D       E       F#  
E       F#      G       A       B       C       D   
i       iid     III     iv      v       VI      VII

Additional Information

Genre Prog-Rock/Art Rock Key C# minor BPM 130.0

Collaboration started October 15, 2019 by rhythmicdevil
Last upload 5 days ago


Copyright Information

Initial Copyright Statement:

Copyright © 2019 by rhythmicdevil, All Rights Reserved.
Effective on Oct 15, 2019


Copyright Sharing Statement:

rhythmicdevil has declared the following Composition and Sound Recording copyright intentions for this collaboration, when completed:

Composition: Based on a split sheet
Sound Recording: Based on a split sheet
Upload Metrics

 

Collaborators
PLUS
rhythmicdevil Steven Wright
Marietta GA USA
Creator